Jump to content

SITE HELP: OCR Sheet Music/Tabs/MIDIs


Recommended Posts

I didn't read through all posts, so I'm sorry if this has already been addressed... but the "Tale In Piano" link isn't working. I'm a little crushed. :neutral:

Thanks in advance to David or anyone else who fixes this.

I'm surprised the 600 AD music is still up, as kLuTz's site has been down for awhile...

I have the Tale in Piano pdf, and I could send it to someone to host (just shoot me a PM) but be aware that both the 600 AD transcription and the tale in piano transcription DO have noticeable errors...if you have a good ear like me you can pick them out by comparing to the mp3 (though figuring out chords and lots of pedal 16ths by ear can be a -pain-) =p. I guess sometime I should make revised transcriptions of some of kLuTz's works--right now I'm using "modified" versions of other people's transcriptions (modified meaning I used a pencil to cross out and write in notes).

Link to post
Share on other sites
  • Replies 152
  • Created
  • Last Reply

Top Posters In This Topic

Top Posters In This Topic

Popular Posts

@Koriantor Yes.... actually, we've built out a "remix_attachments" table and the requisite functionality, we just need to upload what we've got, incorporate it into the front-end of the site, and do a

Okay, I've fixed the Reuben Kee links. Some central/cloud hosting sounds like a great idea though!

Looks like a good number of the links are broken.  I'm desperately looking for a copy of Reuben Kee's "The Place We Knew" Has OCR considered hosting sheets itself if provided by the remixer?  I l

I'm surprised the 600 AD music is still up, as kLuTz's site has been down for awhile...

I have the Tale in Piano pdf, and I could send it to someone to host (just shoot me a PM) but be aware that both the 600 AD transcription and the tale in piano transcription DO have noticeable errors...if you have a good ear like me you can pick them out by comparing to the mp3 (though figuring out chords and lots of pedal 16ths by ear can be a -pain-) =p. I guess sometime I should make revised transcriptions of some of kLuTz's works--right now I'm using "modified" versions of other people's transcriptions (modified meaning I used a pencil to cross out and write in notes).

Well I'm very glad you have it. If no one ever opts to host, could you send it to me?

I don't suppose you have Cutman Sonata as well do you? 8O

Link to post
Share on other sites
No, I don't have Cutman Sonata (though I bet you I could transcribe it pretty easily if i tried...just not now while I'm busy with other stuff).

Uploaded FF4 Tale in Piano pdf is here: (keep in mind it DOES have errors, watch out for them)

http://download.yousendit.com/1F73A527316A67AE

Thank you very, very much. Truly appreciated! :)!!

and I'll keep my MP3 player at hand to avoid erroneous notation. Thanks for the warning as well.

Link to post
Share on other sites
  • 2 months later...

Demon's Crest Phalanx remix with both solos--240BPM:


|--------11~~~~~~~11---------10------------------11~~~~~~~~12---------10-----|
|-----9-------------------9---.---------------9--------------------9---.-----|
|--8-------------------8-------------------8--------------------8------------|
|--------------------------------------------------------------<16>----------|
|----------------------------------------------------------------------------|
|----------------------------------------------------------------------------|
16th fret harmonic, dive w/whammy bar ^




|-------------------------------------------------------------------------------|
|-------------------------------------------------------------------------------|
|*-----------------------------------------------------------------------------*|
|*--8--8--8-------8----7-------------7-----8--8--8--------9-----7-----------7--*|
|---6--6--6-------6----5-------------5-----6--6--6--------7-----5-----------5---|
|---6--6--6-------6----5-------------5-----6--6--6--------7-----5-----------5---|



Double time

_3_ _3_ _ _ _
|-|-| |-|-| |-| | |-| | |-| |
| | | | | | | | | | | | | | |
* * * * * * * * * * * * * * *
|-------------------------------------------|
|-------------------------------------------|
|*-----------------------------------------*| x8
|*-------------------------7-7-6---9-9-8---*|
|-6-6-6--9-9-9--10-10-9---------------------|
|-------------------------------------------|


First solo (spacing doesn't reflect timing):

t pp t pp t pp t pp t pp t pp t pp t pp t pp t pp t pp t pp t pp t pp t pp t pp
|-1285-1285-1285-1285-1285-1285-1285-1285-1285-1285-1285-1285-1285-1285-1285-1285--|
|----------------------------------------------------------------------------------|
|*---------------------------------------------------------------------------------|
|*---------------------------------------------------------------------------------|
|----------------------------------------------------------------------------------|
|----------------------------------------------------------------------------------|
| |
| |
|----------------------------------------------------------------------------------|
|----------------------------------------------------------------------------------|
|*---------------------------------------------------------------------------------|
|*6-----------------------------6---------6-----------------------------6----------|
|-6-----------------------------6---------6-----------------------------6----------|
|-4-----------------------------4---------4-----------------------------4----------|
. .



t pp t pp t pp t pp t pp t pp t pp t pp t pp t pp t pp t pp t pp t pp t pp t pp
|-1185-1185-1185-1185-1185-1185-1185-1185-1185-1185-1185-1185-1185-1185-1185-1185--|
|----------------------------------------------------------------------------------|
|---------------------------------------------------------------------------------*|
|---------------------------------------------------------------------------------*|
|----------------------------------------------------------------------------------|
|----------------------------------------------------------------------------------|
| |
| |
|----------------------------------------------------------------------------------|
|----------------------------------------------------------------------------------|
|----------------------------------------------------------------------------------|
|---------------------------------------------------------------------------------*|
|-5-----------------------------5---------5-----------------------------5---------*|
|-5-----------------------------5---------5-----------------------------5----------|
|-3-----------------------------3---------3-----------------------------3----------|
. .




_____ _____ _____ ___ _____ _____ _____ ___
|-|-|-| |-|-|-| |-|-|-| | | |-|-|-| |-|-|-| |-|-|-| | |
| | | | | | | | | | | | | | | | | | | | | | | | | | | |
* * * * * * * * * * * * * * * * * * * * * * * * * * * *
|--------------------------------|---------------------------------|
|--------------------------------|---------------------------------|
|*-------------------------------|---------------------------------|
|*-------------------------------|---------------------------------|
|--------------------------------|---------------------------------|
|--0-0-0-0-0-0-0-0-0-0-0-0-1-/-3-|-0-0-0-0-0-0-0-0-0-0-0-0-1-/-3---|


_____ _____ _____ _____ _____ _____ _ ___
|-|-|-| |-|-|-| |-|-|-| |-|-|-| |-|-|-| |-|-|-| |-| | | |\
| | | | | | | | | | | | | | | | | | | | | | | | | | | | |
* * * * * * * * * * * * * * * * * * * * * * * * * * * * *
|--------------------------------|---------------------------------|
|--------------------------------|---------------------------------|
|--------------------------------|--------------------------------*| x4 (with whammy dives)
|--------------------------------|-------------------------3------*|
|--------------------------------|---------------------3-------3---|
|-4-4-4-4-4-4-4-4-4-4-4-4-4-4-4-4|1-1-1-1-1-1-1-1-1-1--------------|




Second solo (guitar 2 plays rhythm from first solo--spacing doesn't reflect timing):

|----------------------------------------------------------------------------------|
|-0h3h5-0h3h5-0h3h5-0h3h5-0h5h7-0h5h7-0h5h7-0h5h7-0h7h8-0h7h8-0h7h8-0h7h8-0h8h10---|
|----------------------------------------------------------------------------------|
|----------------------------------------------------------------------------------|
|----------------------------------------------------------------------------------|
|----------------------------------------------------------------------------------|



|----------------------------------------------------------------------------------|
|-0h8h10-0h8h10-0h8/12~~~~~~~~~~~~t15p12h13p12t16p12h13p12t15p12h13p12t16p12h13p12-|
|----------------------------------------------------------------------------------|
|----------------------------------------------------------------------------------|
|----------------------------------------------------------------------------------|
|----------------------------------------------------------------------------------|




|----------------------------------------------------------------------------------|
|-t15p12h13p12t16p12h13p12t15p12h13p12t16p12h13p12-12~~~~~~~~~~~~~9p8-9~~~~~~~~~~~-|
|----------------------------------------------------------------------------------|
|----------------------------------------------------------------------------------|
|----------------------------------------------------------------------------------|
|----------------------------------------------------------------------------------|


(bend up, then down)
|----------------------------------------------------------------------------------|
|-8(9)(~~~~~~~~~~~~~~~~~~~~~8\---------------------------------------------------|
|----------------------------------------------------------------------------------|
|----------------------------------------------------------------------------------|
|----------------------------------------------------------------------------------|
|----------------------------------------------------------------------------------|



_3_ _3_ _ _ _
|-|-| |-|-| |-| | |-| | |-| |
| | | | | | | | | | | | | | |
*'*'*' *'*'*' * * * * * * * * *
|-------------------------------------------|
|-------------------------------------------|
|*-----------------------------------------*| x8
|*-------------------------7-7-6---9-9-8---*|
|-6-6-6--9-9-9--10-10-9---------------------|
|-------------------------------------------|




(2-bar drum break)





_____ _____ _____ ___ _____ _____ _____ ___
|-|-|-| |-|-|-| |-|-|-| | | |-|-|-| |-|-|-| |-|-|-| | |
| | | | | | | | | | | | | | | | | | | | | | | | | | | |
* * * * * * * * * * * * * * * * * * * * * * * * * * * *
|--------------------------------|---------------------------------|
|--------------------------------|---------------------------------|
|*-------------------------------|---------------------------------|
|*-------------------------------|---------------------------------|
|--------------------------------|---------------------------------|
|--0-0-0-0-0-0-0-0-0-0-0-0-1-/-3-|-0-0-0-0-0-0-0-0-0-0-0-0-1-/-3---|


_____ _____ _____ _____ _____ _____ _ ___
|-|-|-| |-|-|-| |-|-|-| |-|-|-| |-|-|-| |-|-|-| |-| | | |\
| | | | | | | | | | | | | | | | | | | | | | | | | | | | |
* * * * * * * * * * * * * * * * * * * * * * * * * * * * *
|--------------------------------|---------------------------------|
|--------------------------------|---------------------------------|
|--------------------------------|--------------------------------*| x8 (with whammy dives)
|--------------------------------|-------------------------3------*|
|--------------------------------|---------------------3-------3---|
|-4-4-4-4-4-4-4-4-4-4-4-4-4-4-4-4|1-1-1-1-1-1-1-1-1-1--------------|



|\
|
*
|------------------------------------------------------------------|
|------------------------------------------------------------------|
|------------------------------------------------------------------|
|-2----------------------------------------------------------------|
|-2----------------------------------------------------------------|
|-0----------------------------------------------------------------|

-steve

PS: shouldn't this be in the remixing tips section?

Link to post
Share on other sites
  • 1 month later...
  • 2 weeks later...


E-----------------------------------------------------------
B-------------------------------------------10-10-11~-------
G---x\-------12~---12~-------------10----12~----------------
D---x\-----------------*10~----/10----10--------------------
A---x\---/10----/10-----------------------------------------
E-----------------------------------------------------------

-----------------------------------------------------------
--15VVV^---------------------------------------------------
-----------------------------------------12----------------
-----------------------10-12-13-12-13-15---15-13-12-13-15--
--------/(13)-10-12-13-------------------------------------
-----------------------------------------------------------


E---------------------------------------------15~----15-18-18~
B--------------------15---------------15-16-18----18--------
G--12-14-15-14-15-17----17-15-14-15-17----------------------
D-----------------------------------------------------------
A-----------------------------------------------------------
E-----------------------------------------------------------



E-18-17-17~-----18----18\17--15-17-18-17-15-----------------
B------------15----15-----------------------18-16-15--------
G----------------------------------------------------17-----
D-----------------------------------------------------------
A-----------------------------------------------------------
E-----------------------------------------------------------


E--------------------17-18-17-18~---20--20B22~--------------
B-18B20~--18B20B18~-----------------------------------------
G-----------------------------------------------------------
D-----------------------------------------------------------
A-----------------------------------------------------------
E-----------------------------------------------------------


x\=Pickslide
/=Slide into note from below
*=Pinch harmonic
~= Vibrato
V=Whammy Bar Dip
^=Whammy bar Rise
()= Ghost/Grace Note
B*= Bend up to*
B*B= Bend up to* and return

Guitar Tone=
Bridge Pickup, Slight Delay added ( very low feedback)

Hey guys, I was bored so I decided to tab out Sixto's Guitar solo in what I think is pretty much the coolest song of the whole VotL project, Scenes From a Memory (On that day five years ago). The fast runs are probably inaccurate, and I'm not entirely sure about the crazy whammy bar note, but it should at least sound decent enough over the backing track.

Link to post
Share on other sites
  • 3 weeks later...
  • 4 weeks later...

If people are still looking for it, I downloaded Jenova a while back when it was still up:

http://www.box.net/shared/hu8oy2xzno

I also made sheet music for a couple other songs:

BogusRed's "Into the Golden Sunset" - http://www.box.net/shared/1lrea21g0x

BogusRed's "Beyond Midgar" (in two parts, since having only Finale Notepad limits things...) - http://www.box.net/shared/lvoivnnvxd & http://www.box.net/shared/rpz77plgag

Dhsu and GrayLightning's "Nayru's Love" = http://www.box.net/shared/y9c9xsrty1''

These are all PDFs

Link to post
Share on other sites
  • 1 month later...
If people are still looking for it, I downloaded Jenova a while back when it was still up:

http://www.box.net/shared/hu8oy2xzno

I also made sheet music for a couple other songs:

BogusRed's "Into the Golden Sunset" - http://www.box.net/shared/1lrea21g0x

BogusRed's "Beyond Midgar" (in two parts, since having only Finale Notepad limits things...) - http://www.box.net/shared/lvoivnnvxd & http://www.box.net/shared/rpz77plgag

Dhsu and GrayLightning's "Nayru's Love" = http://www.box.net/shared/y9c9xsrty1''

These are all PDFs

Haven't tried them yet, but BIG thanks, dude! Especially for Into the Golden Sunset.

Link to post
Share on other sites
  • 1 month later...
  • 2 weeks later...
  • 1 month later...

I'm collecting all the sheet music of OCR arrangements that I can find and hosting it on my site http://loki.sdf1.org/m/s it's not pretty but bare with me until I can find the time to fix up the sheet music page. I'd appreciate if people would send me any missing sheets so that I can put it up to help people get the sheet music they want quickly and efficiently.

My website has a quota so occasionally it may go down because people have downloaded too much. Currently I'm hosting about 10mb so if ten people download every sheet then my site will go down for the day and open up the next. Hope everyone will help me in this endeavor to create a centralized host for the OCR arrangement sheets.

My email is lokasennasam@gmail.com

Link to post
Share on other sites
  • 2 weeks later...

Just want to put a quick few notes in here:

1.) If you find someone posting a Finale (.mus) file you can't seem to open, you can just go to their website and download Notepad. Notepad is a free program no matter what, and it'll open any files from that version backwards. Notepad 2008 can open Finale 2008 and back. Makes it simple. If I remember correctly, that was the intent so you can view everybody's music (to entice you into buying the other programs) no matter what.

2.) If you have a file that's not manually sequenced, it's really hard to do, but you can get it about 85% of the way to a more "on the beat" piece. It's just have a lot to do with math. If you know the notes you see are three times as fast, you can do a very general duration change (and then have your program rebar, if it can). Granted, this is still very "eh" in the long run, but it helps quite a bit.

3.) For those of you with the newer programs (I'm stuck with Finale and Sibelius, can't get me off them), there are tools to convert from Midi to TAB. I don't know how it works in Sibelius, but in Finale 2007 at later (probably '06, I can't remember though), if you have say a Guitar stave and a Guitar - TAB stave, you can write the normal notation on the Guitar, then copy and past into the TAB, and it will automatically kick out the appropriate TAB! Great what our programs can do these days, isn't it?

Link to post
Share on other sites
  • 4 weeks later...
  • 1 month later...
  • 6 months later...
Does anyone have a copy of Dhsu's "A Clockwork Vampire" sheet music lying around? The link on page 1 is dead :(

*.pdf is preferred, but *.midi is fine too.

This project pretty much lost interest a while ago. (I still do, but I'm not in a position to host anything. Maybe googlesites or something, but I don't have all of the sheet music)

Lokasenna's link is dead now. There used to be some stuff there. (http://loki.sdf1.org/m/s)

Maybe PM Dhsu.

Link to post
Share on other sites
This project pretty much lost interest a while ago. (I still do, but I'm not in a position to host anything. Maybe googlesites or something, but I don't have all of the sheet music)

Lokasenna's link is dead now. There used to be some stuff there. (http://loki.sdf1.org/m/s)

Maybe PM Dhsu.

That site's a 404. If you could upload it to http://www.mediafire.com/ , that'd be great.

Link to post
Share on other sites

Join the conversation

You can post now and register later. If you have an account, sign in now to post with your account.

Guest
Reply

×   Pasted as rich text.   Paste as plain text instead

  Only 75 emoji are allowed.

×   Your link has been automatically embedded.   Display as a link instead

×   Your previous content has been restored.   Clear editor

×   You cannot paste images directly. Upload or insert images from URL.


×
×
  • Create New...