Jump to content

SITE HELP: OCR Sheet Music/Tabs/MIDIs


Recommended Posts

I think it should probably be mentioned that if you do not have the same version of Finale or higher (in year) you won't be able to open the file...

I haven't had that problem. It should just convert the file to the updated format(or something like that). I use Finale Notepad 2006. Don't got the dough for a better version.

EDIT: Never mind what I just said.

Link to post
Share on other sites
  • Replies 152
  • Created
  • Last Reply

Top Posters In This Topic

Top Posters In This Topic

Popular Posts

@Koriantor Yes.... actually, we've built out a "remix_attachments" table and the requisite functionality, we just need to upload what we've got, incorporate it into the front-end of the site, and do a

Okay, I've fixed the Reuben Kee links. Some central/cloud hosting sounds like a great idea though!

Looks like a good number of the links are broken.  I'm desperately looking for a copy of Reuben Kee's "The Place We Knew" Has OCR considered hosting sheets itself if provided by the remixer?  I l

Just wondering if anyone had good sheet music of BogusRed's songs. I used the MIDIs in a music notation, but as was to be expected, the rhythm was horrible, making it very difficult to play from. Im far too lazy to listen to the song 1,000,000 times and get the exact rhythm myself, so I was wondering if any of you had reliable sheet music

Link to post
Share on other sites
Just wondering if anyone had good sheet music of BogusRed's songs. I used the MIDIs in a music notation, but as was to be expected, the rhythm was horrible, making it very difficult to play from. Im far too lazy to listen to the song 1,000,000 times and get the exact rhythm myself, so I was wondering if any of you had reliable sheet music

Best best is to mail Susie and find out if she has anything, as in general we really don't have many fans writing sheet music or tabs for work that isn't theirs. But AFAIK what's on her site is the only material that's available.

With that said, let's please not treat the thread as a sort of request thread. But I'll be glad if it serves as an impetous though for others like chthonic to start proving tabs and the like for their own music. Thanks to everyone who has provided material so far, it's greatly appreciated.

Link to post
Share on other sites

I'll never understand why people ask for sheet music from me when it's clearly evident in most of my songs there are at least 3 pianos (at most, 5) at work at any given time. How the fuck are these chuckle heads expecting to play any of my songs? With a few of their incontinent moose-eyed buddies staring vapidly at the sheet music, knitting their unibrows in a vain attempt to understand it all?

Fuck that shit!

RAAAAAAAAAAAAAAAAAANT OVAR

Link to post
Share on other sites
I'll never understand why people ask for sheet music from me when it's clearly evident in most of my songs there are at least 3 pianos (at most, 5) at work at any given time. How the fuck are these chuckle heads expecting to play any of my songs? With a few of their incontinent moose-eyed buddies staring vapidly at the sheet music, knitting their unibrows in a vain attempt to understand it all?

Fuck that shit!

RAAAAAAAAAAAAAAAAAANT OVAR

You just don't want people to see how easily I can play your 5-pianos worth of sheet music with one hand and a extremely long penis.

Link to post
Share on other sites
  • 2 weeks later...

If you check the updates on his site, some fishy stuff happened around Christmas/New Years. He's been slowly patching it up though (though he might not even know that he is missing the sheet music to 600 A.D.).

http://rapidshare.de/files/12308474/600AD.zip.html

I also have original sheet music to the Final Fantasy VII Piano Collections. I don't know if anyone is interested in it though, but I don't know why they wouldn't be... Yeah, so I'll get around to that when I find the time. Is rapidshare a good way to upload these things? I don't have a server or any web hosting. If not, then give me other alternatives that are effective and free... but mostly free.

Link to post
Share on other sites

Most excellent! Now all I need is to get my frickin' printer working again and I can get playing on some of these pieces. Nice call, Dhsu!

On a side note, while it's not officially on this site, Dhsu, you should really get your Earthbound piece "Nirvana" up here. I would love to see the sheets for that!

Link to post
Share on other sites
  • 3 weeks later...

FF6 Mystic Forest (Back to the Roots mix):


Rhythm
Part A (4 bars)
|--------------------------|-------------------------|
|--------------------------|-------------------------|
3 |*-----5---------------5---|-----5---------------5---|
~ |*-2-------2-------2-------|-3-------3-------3-------|
4 |--0-------0-------0-------|-0-------0-------0-------|
|--------------------------|-------------------------|
. . . . . .



|--------------------------|-------------------------|
|--------------------------|-------------------------|
|------5---------------5---|-----5---------------5--*| Play 5 times
|--4-------4-------4-------|-3-------3-------3------*|
|--0-------0-------0-------|-0-------0-------0-------|
|--------------------------|-------------------------|
. . . . . .


Part B (4 bars)
|--------------------------|-------------------------|
|--------------------------|-------------------------|
|------3---------------3---|-----3---------------3---|
|--3-------3-------3-------|-2-------2-------2-------|
|--1-------1-------1-------|-1-------1-------1-------|
|--------------------------|-------------------------|
. . . . . .



|--------------------------|-------------------------|
|--------------------------|-------------------------|
|------3---------------3---|-----3---------------3---|
|--3-------3-------3-------|-5-------5-------5-------|
|--1-------1-------1-------|-1-------1-------1-------|
|--------------------------|-------------------------|
. . . . . .



Part C (4 bars)
|--------------------------|-------------------------|
|--------------------------|-------------------------|
|*---------5-------5-------|---------5-------5-------|
|*-----2-------2-------2---|-----3-------3-------3---|
|--0-----------------------|-0-----------------------|
|--------------------------|-------------------------|
. . . . . .



|--------------------------|-------------------------|
|--------------------------|-------------------------|
|----------5-------5-------|---------5-------5------*| Play 4 times
|------4-------4-------4---|-----3-------3-------3--*|
|--0-----------------------|-0-----------------------|
|--------------------------|-------------------------|
. . . . . .



Part D (4 bars)
|--------------------------|-------------------------|
|--------------------------|-------------------------|
|*---------3-------3-------|---------3-------3-------|
|*-----3-------3-------3---|-----2-------2-------2---|
|--1-----------------------|-1-----------------------|
|--------------------------|-------------------------|
. . . . . .



|--------------------------|-------------------------|
|--------------------------|-------------------------|
|----------3-------3-------|---------3-------3------*|
|------3-------3-------3---|-----5-------5-------5--*|
|--1-----------------------|-1-----------------------|
|--------------------------|-------------------------|
. . . . . .


Play part C again for 8 bars


Part E (4 bars)
|--------------------------|-------------------------|
|--------------------------|-------------------------|
|*---------2-------2-------|---------2-------2-------|
|*-------------------------|-----0-------0-------0---|
|------3-------3-------3---|-------------------------|
|--1-----------------------|-1-----------------------|
. . . . . .



|--------------------------|-------------------------|
|--------------------------|-------------------------|
|----------2-------2-------|---------2-------2------*|
|------2-------2-------2---|-----0-------0-------0--*|
|--------------------------|-------------------------|
|--1-----------------------|-1-----------------------|
. . . . . .



|--------------------------|-------------------------|
|--------------------------|-------------------------|
|----------0-------0-------|---------0-------0-------|
|--------------------------|-------------------------|
|------3-------3-------3---|-----3-------3-------3---|
|--0-----------------------|-0-----------------------|
. . . . . .



|--------------------------|-------------------------|
|----------5-------5-------|---------5-------5-------|
|--------------------------|-------------------------|
|------5-------5-------5---|-----5-------5-------5---|
|--3-----------------------|-3-----------------------|
|--------------------------|-------------------------|
. . . . . .


Play part E for 8 more bars


|----------3-------3-------|---------3-------3-------|
|--------------------------|-------------------------|
|*-----3-------3-------3---|-----3-------3-------3--*|
|*-1-----------------------|-1----------------------*|
|--------------------------|-------------------------|
|--------------------------|-------------------------|
. . . . . .



|--------------------------|-------------------------|
|--------------------------|-------------------------|
|----------3-------3-------|---------3-------3-------|
|--------------------------|-------------------------|
|------5-------5-------5---|-----5-------5-------5---|
|--3-----------------------|-3-----------------------|
. . . . . .


Play part C for 12 bars, then part D for 8 bars, then C for 8 bars, end on A chord



Melody
Start on 9th bar of "A" pattern:

|----------8-------7-------|-5-----------------------|
|--------------------------|---------8-------6-------|
|--------------------------|-------------------------|
|--------------------------|-------------------------|
|--------------------------|-------------------------|
|--------------------------|-------------------------|
. . . . . .



|--------------------------|-------------------------|
|--5-----------------------|-----------------3-------|
|--------------------------|---------5---------------|
|--------------------------|-------------------------|
|--------------------------|-------------------------|
|--------------------------|-------------------------|
. . . . . .



|--------------------------|-------------------------|
|--5-----------------------|(5)----------------------|
|--------------------------|-------------------------|
|--------------------------|-------------------------|
|--------------------------|-------------------------|
|--------------------------|-------------------------|
. . . . . .



|--------------------------|-------------------------|
|-(5)----------------------|(5)----------------------|
|--------------------------|-------------------------|
|--------------------------|-------------------------|
|--------------------------|-------------------------|
|--------------------------|-------------------------|
. . . . . .



|----------8-------7-------|-5-----------------------|
|--------------------------|---------8-------6-------|
|--------------------------|-------------------------|
|--------------------------|-------------------------|
|--------------------------|-------------------------|
|--------------------------|-------------------------|
. . . . . .



|--------------------------|-------------------------|
|--5-----------------------|-----------------3-------|
|--------------------------|---------5---------------|
|--------------------------|-------------------------|
|--------------------------|-------------------------|
|--------------------------|-------------------------|
. . . . . .



|--------------------------|-------------------------|
|--5---------------6-------|-3-----------------------|
|--------------------------|-------------------------|
|--------------------------|-------------------------|
|--------------------------|-------------------------|
|--------------------------|-------------------------|
. . . . . .



|--------------------------|---------8-------6-------|
|-(3)----------------------|-------------------------|
|--------------------------|-------------------------|
|--------------------------|-------------------------|
|--------------------------|-------------------------|
|--------------------------|-------------------------|
. . . . . .



|--5-----------------------|(5)----------------------|
|--------------------------|-------------------------|
|--------------------------|-------------------------|
|--------------------------|-------------------------|
|--------------------------|-------------------------|
|--------------------------|-------------------------|
. . . . . .



|-(5)----------------------|(5)----------------------|
|--------------------------|-------------------------|
|--------------------------|-------------------------|
|--------------------------|-------------------------|
|--------------------------|-------------------------|
|--------------------------|-------------------------|
. . . . . .



|----------8-------7-------|-5-----------------------|
|--------------------------|---------8-------6-------|
|--------------------------|-------------------------|
|--------------------------|-------------------------|
|--------------------------|-------------------------|
|--------------------------|-------------------------|
. . . . . .



|--------------------------|-------------------------|
|--5-----------------------|-----------------3-------|
|--------------------------|---------5---------------|
|--------------------------|-------------------------|
|--------------------------|-------------------------|
|--------------------------|-------------------------|
. . . . . .



|--------------------------|-------------------------|
|--5-----------------------|(5)----------------------|
|--------------------------|-------------------------|
|--------------------------|-------------------------|
|--------------------------|-------------------------|
|--------------------------|-------------------------|
. . . . . .



|--------------------------|-------------------------|
|-(5)----------------------|(5)----------------------|
|--------------------------|-------------------------|
|--------------------------|-------------------------|
|--------------------------|-------------------------|
|--------------------------|-------------------------|
. . . . . .



|----------8-------7-------|-5-----------------------|
|--------------------------|---------8-------6-------|
|--------------------------|-------------------------|
|--------------------------|-------------------------|
|--------------------------|-------------------------|
|--------------------------|-------------------------|
. . . . . .



|--------------------------|-------------------------|
|--5-----------------------|-----------------3-------|
|--------------------------|---------5---------------|
|--------------------------|-------------------------|
|--------------------------|-------------------------|
|--------------------------|-------------------------|
. . . . . .



|--------------------------|-------------------------|
|--5---------------6-------|-3-----------------------|
|--------------------------|-------------------------|
|--------------------------|-------------------------|
|--------------------------|-------------------------|
|--------------------------|-------------------------|
. . . . . .



|--------------------------|-------------------------|
|-(3)----------------------|(3)----------------------|
|--------------------------|-------------------------|
|--------------------------|-------------------------|
|--------------------------|-------------------------|
|--------------------------|-------------------------|
. . . . . .



|--12--------------13------|-10----------------------|
|--------------------------|-------------------------|
|--9---------------10------|-7-----------------------|
|--------------------------|-------------------------|
|--------------------------|-------------------------|
|--------------------------|-------------------------|
. . . . . .



|-(10)---------------------|-------------------------|
|--------------------------|-------------------------|
|-(7)----------------------|---------5-------4-------|
|--------------------------|-------------------------|
|--------------------------|-------------------------|
|--------------------------|-------------------------|
. . . . . .



|--------------------------|-------------------------|
|--------------------------|-------------------------|
|--2-----------------------|(2)----------------------|
|--------------------------|-------------------------|
|--------------------------|-------------------------|
|--------------------------|-------------------------|
. . . . . .



|--------------------------|-------------------------|
|--------------------------|-------------------------|
|--------------------------|-------------------------|
|--------------------------|-------------------------|
|--------------------------|-------------------------|
|--------------------------|-------------------------|
. . . . . .



|--------------------------|-----------------1h2h3h4-|
|--------------------------|---------2h3h4h5---------|
|--------------------------|-2h3h4h5-----------------|
|--------------------------|-------------------------|
|--------------------------|-------------------------|
|--------------------------|-------------------------|
. . . . . .



|--5-------7-------8-------|-10------8-------7-------|
|--------------------------|-------------------------|
|--------------------------|-------------------------|
|--------------------------|-------------------------|
|--------------------------|-------------------------|
|--------------------------|-------------------------|
. . . . . .



|--5-----------------------|(5)----------------------|
|--------------------------|-------------------------|
|--------------------------|-------------------------|
|--------------------------|-------------------------|
|--------------------------|-------------------------|
|--------------------------|-------------------------|
. . . . . .



|--5-------7-------8-------|-10------8-------7-------|
|--------------------------|-------------------------|
|--------------------------|-------------------------|
|--------------------------|-------------------------|
|--------------------------|-------------------------|
|--------------------------|-------------------------|
. . . . . .



|--5-----------------------|-5-------3-------5-------|
|--------------------------|-------------------------|
|--------------------------|-------------------------|
|--------------------------|-------------------------|
|--------------------------|-------------------------|
|--------------------------|-------------------------|
. . . . . .



|--7---------------8-------|-------------------------|
|--------------------------|-8-----------------------|
|--------------------------|-------------------------|
|--------------------------|-------------------------|
|--------------------------|-------------------------|
|--------------------------|-------------------------|
. . . . . .



|--------------------------|-------------------------|
|-(8)----------------------|(8)----------------------|
|--------------------------|-------------------------|
|--------------------------|-------------------------|
|--------------------------|-------------------------|
|--------------------------|-------------------------|
. . . . . .



|--5-------7-------8-------|-10------8-------7-------|
|--------------------------|-------------------------|
|--------------------------|-------------------------|
|--------------------------|-------------------------|
|--------------------------|-------------------------|
|--------------------------|-------------------------|
. . . . . .



|--5-----------------------|(5)----------------------|
|--------------------------|-------------------------|
|--------------------------|-------------------------|
|--------------------------|-------------------------|
|--------------------------|-------------------------|
|--------------------------|-------------------------|
. . . . . .



|--5-------7-------8-------|-10------8-------7-------|
|--------------------------|-------------------------|
|--------------------------|-------------------------|
|--------------------------|-------------------------|
|--------------------------|-------------------------|
|--------------------------|-------------------------|
. . . . . .



|--5-------7-------8-------|-10------12------13------|
|--------------------------|-------------------------|
|--------------------------|-------------------------|
|--------------------------|-------------------------|
|--------------------------|-------------------------|
|--------------------------|-------------------------|
. . . . . .



|--15------15------18------|-17------17------18------|
|--------------------------|-------------------------|
|--------------------------|-------------------------|
|--------------------------|-------------------------|
|--------------------------|-------------------------|
|--------------------------|-------------------------|
. . . . . .



|--15----------------------|-18------17--------------|
|--------------------------|-----------------18------|
|--------------------------|-------------------------|
|--------------------------|-------------------------|
|--------------------------|-------------------------|
|--------------------------|-------------------------|
. . . . . .



|--15----------------------|-------------------------|
|--------------------------|-------------------------|
|--------------------------|-------------------------|
|--------------------------|-------------------------|
|--------------------------|-------------------------|
|--------------------------|-------------------------|
. . . . . .

Skies of Arcadia - Dungeon Cave (Buried Alive mix) (main theme only):


Part A:
|------------------------|-----------0--------------|
|-------1----------------|-------1-----1------------|
|---2-0-----2-0---0------|---2-0---2-----3-2---0---*|
|-0-------3-----3---3-2--|-0-----------------3---2-*|
|-----------------------3|--------------------------|
|------------------------|--------------------------|
. . . . . .

Mega Man 2 - Wily's Mosh Pit (partial):


/3\ /3\ /3\ /3\
|--------------------------------------------------|
|-----------------------------------------9--7--9--|
|*-6--999---999---6-----669---999---6--------------|
|*-------------------------------------------------|
|--------------------------------------------------|
|--------------------------------------------------|
. . . . . . . .


/3\ /3\
|--------------------------------------------------|
|-----------------------9-----7-----5-----7--------|
|-----999---999---6--------------------------------|
|--------------------------------------------------|
|--------------------------------------------------|
|--------------------------------------------------|
. . . . . . . .


/3\ /3\
|--------------------------------------------------|
|-----777---777---4-----9-----7-----5-----4--------|
|--------------------------------------------------|
|--------------------------------------------------|
|--------------------------------------------------|
|--------------------------------------------------|
. . . . . . . .


/~~3~\ /~~3~\
|--------------7--6-----------------7--6-----11-12-|
|-----------9--------------------9-----------------|
|--6----6---------------6----6--------------------*|
|-------------------------------------------------*|
|--------------------------------------------------|
|--------------------------------------------------|
. . . . . . . .


solo at 8th bar:

|--------------------------------------------------|
|--------------------------------------------12-14-|
|--------------------------------------------------|
|--------------------------------------------------|
|--------------------------------------------------|
|--------------------------------------------------|
. . . . . . . .



|--------------------12----------------------------|
|-----------------12-------14----12----14----12----|
|--------------------------------------------------|
|--------------------------------------------------|
|--------------------------------------------------|
|--------------------------------------------------|
. . . . . . . .



|--------------------------------------------------|
|--------------12-14----9--10-9-----------9--12-14-|
|--------------------------------9-----9-----------|
|--------------------------------------------------|
|--------------------------------------------------|
|--------------------------------------------------|
. . . . . . . .



|--------------------12----------------------------|
|-----------------12-------14----12----14----12----|
|--------------------------------------------------|
|--------------------------------------------------|
|--------------------------------------------------|
|--------------------------------------------------|
. . . . . . . .



|-----------------------------11-12-14-16----------|
|--------------12-9--12-13-------------------------|
|--------------------------------------------------|
|--------------------------------------------------|
|--------------------------------------------------|
|--------------------------------------------------|
. . . . . . . .



|--------------------------------------------------|
|--------------------------------------------------|
|-----------------------4--------------------------|
|--6-----------------4--------7-----6-----7-----6--|
|--------------------------------------------------|
|--------------------------------------------------|
. . . . . . . .



|--------------------------------------------------|
|--------------------------------------------------|
|-----------------------4--------------------------|
|(6)-----------------4--------7-----6-----7--------|
|------------------------------------------------7-|
|--------------------------------------------------|
. . . . . . . .



|--------------------------------------------------|
|--------------------------------------------------|
|--------------------------------------------------|
|-----------------------4--6-----------------------|
|(7)-----------------7--------6--------------------|
|--------------------------------------------------|
. . . . . . . .



/~~3~\ /~~3~\
|--------------7--6-----------------7--6-----------|
|-----------9--------------------9-----------------|
|--6----6---------------6----6---------------8--9--|
|--------------------------------------------------|
|--------------------------------------------------|
|--------------------------------------------------|
. . . . . . . .



|--------------------------------------------------|
|-----------------------9-----7-----5-----7-----4--|
|(9)-----------------9-----------------------------|
|-----------------11-------------------------------|
|--------------------------------------------------|
|--------------------------------------------------|
. . . . . . . .



|--------------------------------------------------|
|(4)-------------------10-----9-----7-----9-----5--|
|--------------------9-----------------------------|
|-----------------11-------------------------------|
|--------------------------------------------------|
|--------------------------------------------------|
. . . . . . . .



|--------------------------------------------------|
|(5)--------------------9-----7-----5-----7-----4--|
|--------------------9-----------------------------|
|-----------------11-------------------------------|
|--------------------------------------------------|
|--------------------------------------------------|
. . . . . . . .



|--------------------------------------------------|
|(4)-------------------10-----9-----7-----9--------|
|--------------------9--------------------------9--|
|-----------------11-------------------------------|
|--------------------------------------------------|
|--------------------------------------------------|
. . . . . . . .



|--------------------9--7--------------------------|
|-----------------------------10----9-----7--------|
|--9--9--9--8--9-----------------------------------|
|--------------------------------------------------|
|--------------------------------------------------|
|--------------------------------------------------|
. . . . . . . .



|--------------------------------------------------|
|--7-----9--9-----9--------7-----9--9-----9--7-----|
|--------------------------------------------------|
|--------------------------------------------------|
|--------------------------------------------------|
|--------------------------------------------------|
. . . . . . . .



|--------------------9--7--------------------------|
|-----------------------------10----9-----7--------|
|--9--9--9--8--9-----------------------------------|
|--------------------------------------------------|
|--------------------------------------------------|
|--------------------------------------------------|
. . . . . . . .


/~h~~p~\
|--------------------------------------------------|
|--------------------------------------------------|
|--8--9--8--6~~~~~~~~~-----------------------------|
|--------------------------------------------------|
|--------------------------------------------------|
|--------------------------------------------------|
. . . . . . . .



last solo (doubletime for ease of reading):

|------------------------------------12---|
|------------------------------/12--------|
|-----------------------------------------|
|-----------------------------------------|
|-----------------------------------------|
|-----------------------------------------|


|-14p12--12-14p12--12-14p12--12-14p12--12-|
|------12--------12--------12--------12---|
|-----------------------------------------|
|-----------------------------------------|
|-----------------------------------------|
|-----------------------------------------|


|-14p12--12-14p12--12-14p12--12-14p12--12-|
|------12--------12--------12--------12---|
|-----------------------------------------|
|-----------------------------------------|
|-----------------------------------------|
|-----------------------------------------|


|-16p14--14-16p14--14-16p14--14-16p14--14-|
|------14--------14--------14--------14---|
|-----------------------------------------|
|-----------------------------------------|
|-----------------------------------------|
|-----------------------------------------|


|-16p14--14-16p14--14-16p14--14-16p14--14-|
|------14--------14--------14--------14---|
|-----------------------------------------|
|-----------------------------------------|
|-----------------------------------------|
|-----------------------------------------|


|-17p16--16-17p16--16-17p16--16-17p16--16-|
|------16--------16--------16--------16---|
|-----------------------------------------|
|-----------------------------------------|
|-----------------------------------------|
|-----------------------------------------|


|-17p16--16-17p16--16-17p16--16-17p16--16-|
|------16--------16--------16--------16---|
|-----------------------------------------|
|-----------------------------------------|
|-----------------------------------------|
|-----------------------------------------|


|-19p17--17-19p17--17-19p17--17-19p17--17-|
|------17--------17--------17--------17---|
|-----------------------------------------|
|-----------------------------------------|
|-----------------------------------------|
|-----------------------------------------|


|-21p19--19-21p19--19-21p19--19-21p19--19-|
|------19--------19--------19--------19---|
|-----------------------------------------|
|-----------------------------------------|
|-----------------------------------------|
|-----------------------------------------|


full bend
|-22(24)----------------------------------|
|-----------------------------------------|
|-----------------------------------------|
|----x\-----------------------------------|
|----x\-----------------------------------|
|----x\-----------------------------------|
pick slide

Silent Hill 2 - True (It's Gone Now mix) (partial):


|-----------------------------------------------------------------|
|---------1-------3-------4---------------------------------------|
|-----------------------------------------------------------------|
|-----------------------------------------------------------------|
|-3---------------------------------------------------------------|
|-----------------------------------------------------------------|
. . . . . . . .



|-------------------------1---------------------------------------|
|---------1-------3-----------------------------------------------|
|----------------------------------------------------------------*|
|----------------------------------------------------------------*|
|-3---------------------------------------------------------------|
|-----------------------------------------------------------------|
. . . . . . . .



|-----------------------------------------------------------------|
|---------------------------------------------------------8-------|
|-----------------------------------------------------------------|
|-----------------------------------------------------------------|
|-----------------------------------------------------------------|
|-----------------------------------------------------------------|
. . . . . . . .


t t t t t t t t
|-----------------------------------------------------------------|
|-13--p8--15--p8--16--p8--13--p8--15--p8--16--p8--18--p8--15--p8--|
|*----------------------------------------------------------------|
|*----------------------------------------------------------------|
|-----------------------------------------------------------------|
|-----------------------------------------------------------------|
. . . . . . . .


t t t t t
|-----------------------------------------------------------------|
|-16--p9--13--p9--15--p9--11--p9--13--p8--h9--\6--/8------8-------|
|-----------------------------------------------------8~~~~~~~~~~*|
|----------------------------------------------------------------*|
|-----------------------------------------------------------------|
|-----------------------------------------------------------------|
. . . . . . . .


Cello:
|-----------------------------------------------------------------|
|-----------------------------------------------------------------|
|-----------------------------------------------------------------|
|---------5-------3-----------------------------------------------|
|-3---------------------------------------------------------------|
|-----------------------------------------------------------------|
. . . . . . . .



|-----------------------------------------------------------------|
|-----------------------------------------------------------------|
|-----------------------------------------------------------------|
|---------5---------------3---------------------------------------|
|-3---------------------------------------------------------------|
|-----------------------------------------------------------------|
. . . . . . . .



|-----------------------------------------------------------------|
|-----------------------------------------------------------------|
|-----------------------------------------------------------------|
|---------5-------3-----------------------------------------------|
|-3---------------------------------------------------------------|
|-----------------------------------------------------------------|
. . . . . . . .



|-----------------------------------------------------------------|
|-----------------------------------------------------------------|
|-----------------------------------------------------------------|
|-----------------5---6---8-----------------------6---5---3-------|
|-----------------------------------------------------------------|
|-----------------------------------------------------------------|
. . . . . . . .



|-----------------------------------------------------------------|
|-----------------------------------------------------------------|
|-----------------------------------------------------------------|
|---------1---------------3---------------------------------------|
|-----------------------------------------------------------------|
|-----------------------------------------------------------------|
. . . . . . . .

I have a large chunk of the work I did for Silent Hill Static Aversion (CotMM and me), but I'm still working on it at the moment. If anyone wants the scraps let me know, otherwise I'll post it when it's finished.

-steve

Link to post
Share on other sites
  • 2 weeks later...

I have complete score/midi transcriptions for "Battle of Olympus" (Arcadia, Temple and Title screen music). If someone's intrested you might get it if you're nice. But on the other hand if you're a pro you don't need other people who puts the music down to score for you.

Link to post
Share on other sites

Join the conversation

You can post now and register later. If you have an account, sign in now to post with your account.

Guest
Reply

×   Pasted as rich text.   Paste as plain text instead

  Only 75 emoji are allowed.

×   Your link has been automatically embedded.   Display as a link instead

×   Your previous content has been restored.   Clear editor

×   You cannot paste images directly. Upload or insert images from URL.


×
×
  • Create New...